谁有这首歌的gtp?

SD719

新手上路
注册
2007-07-19
消息
197
点数
0
所在地
地球
  • [ame=http://www.youtube.com/watch?v=xWZH2KltP9E&NR=1]YouTube - Cowboy Bebop ELM(Cover)-Yoko Kanno[/ame]

    Cowboy bepop ELM
    最近超级迷恋这首曲子
    想学
    大家帮忙找找吉他谱
    谢谢~
     

    evillancer

    metal black
    注册
    2004-12-20
    消息
    1,121
    点数
    148
    [media]http://www.youtube.com/watch?v=qcrhO_g_NhI&feature=related[/media]

    e|---------------------------------|-----------------------3---------|
    B|-------3------3------------------|-------3------3------3-----------|
    G|-----0------0-----------0--------|-----0------0------0-------------|
    D|---0------0-------3-2-3----------|---0------0------0---------------|
    A|---------------------------------|---------------------------------|
    E|-3--------------3----------------|-3-------------------------------|

    e|---------3-----3-------3-------3-|---------------------------------|
    B|-------3-----3-------3-------3---|-------3------3------------------|
    G|-----0-----0-------0-------0-----|-----0------0-----------0--------|
    D|-0-1-------------1-------3-------|---0------0-------3-2-3----------|
    A|---------------------------------|---------------------------------|
    E|---------------------------------|-3--------------3----------------|

    e|---------------------------------|---------------------------------|
    B|-------3-----3-------3-------3---|-------3------3------------------|
    G|-----0-----0-------0-------0-----|-----0------0-----------0--------|
    D|---0-----0-------0-------0-------|---0------0-------3-2-3----------|
    A|-1-------------1-------3---------|---------------------------------|
    E|---------------------------------|-3--------------3----------------|

    e|---------------------------------|---------------------------------|
    B|-------3-----3-------------------|-------3-------3-----------------|
    G|-----0-----0-------0-------------|-----0-------0-----------0-------|
    D|---0-----0-------0---------------|---0-------0-------3-2-3---------|
    A|-1-------------------------------|---------------------------------|
    E|---------------1-----1h3---------|-3---------------3---------------|

    e|---------------------------------|
    B|-------3------3------------------|
    G|-----0------0-----------0--------|(Play all this 2x)
    D|---0------0-------3-2-3----------|
    A|---------------------------------|
    E|-3--------------3----------------|

    e|-3-3---3---3-3---3---------------|-------------------------------3-|
    B|-3-3---3---3-3---3---------------|-------3----------------3------3-|
    G|-0-0---0---0-0---0---------------|-----0----0-----0----- 0----0--0-|
    D|-0-0---0---0-0---0---------------|---0-----0-----0-----0-----0---0-|
    A|-3-3---3---3-3---3---------------|---------------------------------|
    E|---------------------------------|-3-----------1----1h3------------|

    e|-3-3---3---3-3---3---------------|---------------------------------|
    B|-3-3---3---3-3---3---------------|---------3-----------------------|
    G|-0-0---0---0-0---0---------------|-------0---0----0----0-----------|
    D|-0-0---0---0-0---0---------------|-----0----0----0----0------------|
    A|-3-3---3---3-3---3---------------|-0-1--------------3--------------|
    E|---------------------------------|-------------1-------------------|

    e|---------------------------------|---------------------------------|
    B|-------3------3------------------|-------3------3------------------|
    G|-----0------0-----------0--------|-----0------0-----------0--------|
    D|---0------0-------3-2-3----------|---0------0------ 3-2-3----------|
    A|---------------------------------|---------------------------------|
    E|-3--------------3----------------|-3--------------3----------------|

    e|---------------------------------|---------------------------------|
    B|-------3------3------------------|-------3-------------------------|
    G|-----0------0-------0-----0------|-----0------0-----0-----0--------|
    D|---0------0-------0-----0--------|---0------0-----0-----0----------|
    A|----------------------0----------|-1------------------0------------|
    E|-3--------------1----------------|--------------1------------------|

    e|---------------------------------|----------------------2----------|
    B|-------3-------------------------|--------------------3------------|
    G|-----0------0-------0-----0------|-----0-------0----2--------------|
    D|---0------0-------0-----0--------|---0-------0----0----------------|
    A|-1--------------------0----------|-1-------3-----------------------|
    E|----------------1----------------|---------------------------------|

    e|---------------------------------|---------------------------------|
    B|-------------------3-------------|-------------------3-------------|
    G|-----0-----0-----0------0--------|-----0-----0-----0------0--------|
    D|---0-----0-----0------0----------|---0-----0-----0------0----------|
    A|-------0-----1-------------------|-------0-----1-------------------|
    E|-1-------------------------------|-1-------------------------------|

    e|---------------------------------|------------------3--------------|
    B|-------------------3-------------|-----------------3---------------|
    G|-----0-----0-----0------0--------|-----0-----0----0----------------|
    D|---0-----0-----0------0----------|---0-----0-----0-----------------|
    A|-------0-----1-------------------|---------------------------------|
    E|-1-------------------------------|-3-----4-----3-------------------|
     
    顶部